Hale Dil (murder 2) guitar tabs lead

Hey kash..
----0-2----(3rd string)
Kash yun hota..
----5-5-4-2-0-2-0------
------------------3----
Har shaam..
----3-5----(4th string)
Sath tu hota..
----4-4-2-0-2----(3rd)
Chup chap..
Dil na yun rota..
--------5------------(2nd)
0-2-5-5---5-4-2-0----(3rd)
Har shaam..
Sath tu hota..
-----4-4-2-0-2----(3rd)
-3-5--------------(4th)

Guzara ho tere, bin guzara
Ab muskil hai lagta
-----------------------------------(1st)
------------5-3--------------------(2nd)
----2-2-4-5----4-5-7-5-2-5-5-4-2-4-(3rd)

Nazara ho tera, hi nazara
Ab har din hai lagta….
-------------------------------------(1st)
------------5-3----------------------(2nd)
----2-2-4-5----4-5-7-5-2-5-5-7-5-7-9-(3rd)

Haal e dil tujhko sunata
Dil agar yeh Bol pata
Bakhuda tujhko hai jata jaan..
------------------------------------------------------------
------------------------------------------------------------
-----979--99-10-97--7-5-7--7-7-9-7-5--5-4-5--5-5-7-5-4-4----

Aaha tere sang jo pal bitata
Waqt se main woh mang lata
Yaad karke muskurata haan…
------------------------------------------------------------
------------------------------------------------------------
--5-7--979--99-10-97--7-5-7--7-7-9-7-5--5-4-5--5-5-7-5-4-4----

Woho…..o….ho…..o….ho……
Woho…..o….ho…..o….ho……
----2-4-5-7-5-7-5-4-2-4-5-4-5-4-2-0-2--4-2-4-2-0-2-------(3rd)
--------------------------------------------------2-2----(4th)

Tu meri rah ka sitara…
----9-9-9-7-9-7-5-4-5-7----(3rd)
Tere bina hoon main awara…
----5-5-5-7-5-4-4-5-7>9----(3rd)

Jab bhi tanhai ne sataya…
----9-9-9-7-9-7-5-4-5-7----(3rd)
Tujhko besakhta pukara…
----5-5-5-7-5-4-4-5-7>9----(3rd)

Aa..chahte meri la fana
----7-7-7-9-7-5-4-2-0----(3rd)

Par meri jaan
Dil mein hoon rakhta han..haan..
----5-5-4-2------4-2-4-5-7-9-7-9----(3rd)
------------5-2-2-------------------(4th)
Haal e dil tujhko sunata
Dil agar yeh bol pata
Bakhuda tujhko.. hai jata jaan..
Tere sang jo pal bitata
Waqt se main woh mang lata
Yaad karke muskurata haan…
Woho…..o….ho…..o….ho……
Woho…..o….ho…..o….ho……
You’re love to me
I know love whats meant to be
I know you feel it too
E.. come I love get you
Khwabon ka kab tak loon sahara…
Ab toh tu aa bhi ja khudara…
Meri ye dono pagal aankhen….
Har pal maange tera nazara…..
Aa..samjhao inko kis tarah..
Inpe mera (mera)
Bas nahi chalta han.. haan…
Haal e dil tujhko sunata
Dil agar yeh bol pata
Bakhuda tujhko.. hai jata jaan..
Aaha tere sang jo pal bitata
Waqt se main woh mang lata
Yaad karke muskurata haan…
Woho…..o….ho…..o….ho……
Woho…..o….ho…..o….ho……
Woho…..o….ho…..o….ho……


by 
anieshv

1 comments so far


EmoticonEmoticon